  0
SECTION
  2
BLOCKS
  0
ENDSEC
  0
SECTION
  2
ENTITIES
  0
LINE
  8
0
 10
139.031
 20
19.087
 11
139.51
 21
19.0289
  0
LINE
  8
0
 10
139.51
 20
19.0289
 11
141.286
 21
19.7025
  0
LINE
  8
0
 10
141.286
 20
19.7025
 11
142.545
 21
21.1244
  0
LINE
  8
0
 10
142.545
 20
21.1244
 11
143
 21
22.9688
  0
LINE
  8
0
 10
143
 20
22.9688
 11
143
 21
90.825
  0
LINE
  8
0
 10
143
 20
90.825
 11
123
 21
90.825
  0
LINE
  8
0
 10
123
 20
90.825
 11
123
 21
97.175
  0
LINE
  8
0
 10
123
 20
97.175
 11
143
 21
97.175
  0
LINE
  8
0
 10
143
 20
97.175
 11
143
 21
165.031
  0
LINE
  8
0
 10
143
 20
165.031
 11
142.545
 21
166.876
  0
LINE
  8
0
 10
142.545
 20
166.876
 11
141.286
 21
168.297
  0
LINE
  8
0
 10
141.286
 20
168.297
 11
139.51
 21
168.971
  0
LINE
  8
0
 10
139.51
 20
168.971
 11
139.031
 21
168.913
  0
LINE
  8
0
 10
139.031
 20
168.913
 11
139.031
 21
169
  0
LINE
  8
0
 10
139.031
 20
169
 11
106.969
 21
169
  0
LINE
  8
0
 10
106.969
 20
169
 11
106.969
 21
168.913
  0
LINE
  8
0
 10
106.969
 20
168.913
 11
105.561
 21
168.742
  0
LINE
  8
0
 10
105.561
 20
168.742
 11
103.998
 21
167.663
  0
LINE
  8
0
 10
103.998
 20
167.663
 11
103.115
 21
165.981
  0
LINE
  8
0
 10
103.115
 20
165.981
 11
103.115
 21
165.031
  0
LINE
  8
0
 10
103.115
 20
165.031
 11
103
 21
165.031
  0
LINE
  8
0
 10
103
 20
165.031
 11
103
 21
114
  0
LINE
  8
0
 10
103
 20
114
 11
-80.0312
 21
114
  0
LINE
  8
0
 10
-80.0312
 20
114
 11
-80.0312
 21
113.913
  0
LINE
  8
0
 10
-80.0312
 20
113.913
 11
-81.4386
 21
113.742
  0
LINE
  8
0
 10
-81.4386
 20
113.742
 11
-83.0019
 21
112.663
  0
LINE
  8
0
 10
-83.0019
 20
112.663
 11
-83.8847
 21
110.981
  0
LINE
  8
0
 10
-83.8847
 20
110.981
 11
-83.8847
 21
110.031
  0
LINE
  8
0
 10
-83.8847
 20
110.031
 11
-84
 21
110.031
  0
LINE
  8
0
 10
-84
 20
110.031
 11
-84
 21
77.9688
  0
LINE
  8
0
 10
-84
 20
77.9688
 11
-83.8847
 21
77.9688
  0
LINE
  8
0
 10
-83.8847
 20
77.9688
 11
-83.8847
 21
77.019
  0
LINE
  8
0
 10
-83.8847
 20
77.019
 11
-83.0019
 21
75.337
  0
LINE
  8
0
 10
-83.0019
 20
75.337
 11
-81.4386
 21
74.2579
  0
LINE
  8
0
 10
-81.4386
 20
74.2579
 11
-80.0312
 21
74.087
  0
LINE
  8
0
 10
-80.0312
 20
74.087
 11
-80.0312
 21
74
  0
LINE
  8
0
 10
-80.0312
 20
74
 11
103
 21
74
  0
LINE
  8
0
 10
103
 20
74
 11
103
 21
22.9688
  0
LINE
  8
0
 10
103
 20
22.9688
 11
103.115
 21
22.9688
  0
LINE
  8
0
 10
103.115
 20
22.9688
 11
103.115
 21
22.019
  0
LINE
  8
0
 10
103.115
 20
22.019
 11
103.998
 21
20.337
  0
LINE
  8
0
 10
103.998
 20
20.337
 11
105.561
 21
19.2579
  0
LINE
  8
0
 10
105.561
 20
19.2579
 11
106.969
 21
19.087
  0
LINE
  8
0
 10
106.969
 20
19.087
 11
106.969
 21
19
  0
LINE
  8
0
 10
106.969
 20
19
 11
139.031
 21
19
  0
LINE
  8
0
 10
139.031
 20
19
 11
139.031
 21
19.087
  0
LINE
  8
0
 10
-64.9745
 20
85.974
 11
-66.867
 21
86.4404
  0
LINE
  8
0
 10
-66.867
 20
86.4404
 11
-68.5928
 21
87.3462
  0
LINE
  8
0
 10
-68.5928
 20
87.3462
 11
-70.0517
 21
88.6387
  0
LINE
  8
0
 10
-70.0517
 20
88.6387
 11
-71.1589
 21
90.2427
  0
LINE
  8
0
 10
-71.1589
 20
90.2427
 11
-71.8501
 21
92.0651
  0
LINE
  8
0
 10
-71.8501
 20
92.0651
 11
-72.085
 21
94
  0
LINE
  8
0
 10
-72.085
 20
94
 11
-71.8501
 21
95.9349
  0
LINE
  8
0
 10
-71.8501
 20
95.9349
 11
-71.1589
 21
97.7573
  0
LINE
  8
0
 10
-71.1589
 20
97.7573
 11
-70.0517
 21
99.3613
  0
LINE
  8
0
 10
-70.0517
 20
99.3613
 11
-68.5928
 21
100.654
  0
LINE
  8
0
 10
-68.5928
 20
100.654
 11
-66.867
 21
101.56
  0
LINE
  8
0
 10
-66.867
 20
101.56
 11
-64.9745
 21
102.026
  0
LINE
  8
0
 10
-64.9745
 20
102.026
 11
-63.0255
 21
102.026
  0
LINE
  8
0
 10
-63.0255
 20
102.026
 11
-61.133
 21
101.56
  0
LINE
  8
0
 10
-61.133
 20
101.56
 11
-59.4072
 21
100.654
  0
LINE
  8
0
 10
-59.4072
 20
100.654
 11
-57.9483
 21
99.3613
  0
LINE
  8
0
 10
-57.9483
 20
99.3613
 11
-56.8411
 21
97.7573
  0
LINE
  8
0
 10
-56.8411
 20
97.7573
 11
-56.1499
 21
95.9349
  0
LINE
  8
0
 10
-56.1499
 20
95.9349
 11
-55.915
 21
94
  0
LINE
  8
0
 10
-55.915
 20
94
 11
-56.1499
 21
92.0651
  0
LINE
  8
0
 10
-56.1499
 20
92.0651
 11
-56.8411
 21
90.2427
  0
LINE
  8
0
 10
-56.8411
 20
90.2427
 11
-57.9483
 21
88.6387
  0
LINE
  8
0
 10
-57.9483
 20
88.6387
 11
-59.4072
 21
87.3462
  0
LINE
  8
0
 10
-59.4072
 20
87.3462
 11
-61.133
 21
86.4404
  0
LINE
  8
0
 10
-61.133
 20
86.4404
 11
-63.0255
 21
85.974
  0
LINE
  8
0
 10
-63.0255
 20
85.974
 11
-64.9745
 21
85.974
  0
LINE
  8
0
 10
-93.9688
 20
44.087
 11
-93.4904
 21
44.0289
  0
LINE
  8
0
 10
-93.4904
 20
44.0289
 11
-91.7142
 21
44.7025
  0
LINE
  8
0
 10
-91.7142
 20
44.7025
 11
-90.4546
 21
46.1244
  0
LINE
  8
0
 10
-90.4546
 20
46.1244
 11
-90
 21
47.9688
  0
LINE
  8
0
 10
-90
 20
47.9688
 11
-90
 21
140.031
  0
LINE
  8
0
 10
-90
 20
140.031
 11
-90.4546
 21
141.876
  0
LINE
  8
0
 10
-90.4546
 20
141.876
 11
-91.7142
 21
143.297
  0
LINE
  8
0
 10
-91.7142
 20
143.297
 11
-93.4904
 21
143.971
  0
LINE
  8
0
 10
-93.4904
 20
143.971
 11
-93.9688
 21
143.913
  0
LINE
  8
0
 10
-93.9688
 20
143.913
 11
-93.9688
 21
144
  0
LINE
  8
0
 10
-93.9688
 20
144
 11
-126.031
 21
144
  0
LINE
  8
0
 10
-126.031
 20
144
 11
-126.031
 21
143.913
  0
LINE
  8
0
 10
-126.031
 20
143.913
 11
-127.439
 21
143.742
  0
LINE
  8
0
 10
-127.439
 20
143.742
 11
-129.002
 21
142.663
  0
LINE
  8
0
 10
-129.002
 20
142.663
 11
-129.885
 21
140.981
  0
LINE
  8
0
 10
-129.885
 20
140.981
 11
-129.885
 21
140.031
  0
LINE
  8
0
 10
-129.885
 20
140.031
 11
-130
 21
140.031
  0
LINE
  8
0
 10
-130
 20
140.031
 11
-130
 21
97.175
  0
LINE
  8
0
 10
-130
 20
97.175
 11
-110
 21
97.175
  0
LINE
  8
0
 10
-110
 20
97.175
 11
-110
 21
90.825
  0
LINE
  8
0
 10
-110
 20
90.825
 11
-130
 21
90.825
  0
LINE
  8
0
 10
-130
 20
90.825
 11
-130
 21
47.9688
  0
LINE
  8
0
 10
-130
 20
47.9688
 11
-129.885
 21
47.9688
  0
LINE
  8
0
 10
-129.885
 20
47.9688
 11
-129.885
 21
47.019
  0
LINE
  8
0
 10
-129.885
 20
47.019
 11
-129.002
 21
45.337
  0
LINE
  8
0
 10
-129.002
 20
45.337
 11
-127.439
 21
44.2579
  0
LINE
  8
0
 10
-127.439
 20
44.2579
 11
-126.031
 21
44.087
  0
LINE
  8
0
 10
-126.031
 20
44.087
 11
-126.031
 21
44
  0
LINE
  8
0
 10
-126.031
 20
44
 11
-93.9688
 21
44
  0
LINE
  8
0
 10
-93.9688
 20
44
 11
-93.9688
 21
44.087
  0
LINE
  8
0
 10
13.6912
 20
-247.394
 11
14.8446
 21
-245.806
  0
LINE
  8
0
 10
14.8446
 20
-245.806
 11
14.8446
 21
-244.825
  0
LINE
  8
0
 10
14.8446
 20
-244.825
 11
15
 21
-244.825
  0
LINE
  8
0
 10
15
 20
-244.825
 11
15
 21
-115.981
  0
LINE
  8
0
 10
15
 20
-115.981
 11
126.582
 21
-180.403
  0
LINE
  8
0
 10
126.582
 20
-180.403
 11
126.66
 21
-180.268
  0
LINE
  8
0
 10
126.66
 20
-180.268
 11
127.51
 21
-180.759
  0
LINE
  8
0
 10
127.51
 20
-180.759
 11
129.461
 21
-180.554
  0
LINE
  8
0
 10
129.461
 20
-180.554
 11
130.92
 21
-179.241
  0
LINE
  8
0
 10
130.92
 20
-179.241
 11
142.745
 21
-158.759
  0
LINE
  8
0
 10
142.745
 20
-158.759
 11
143.152
 21
-156.84
  0
LINE
  8
0
 10
143.152
 20
-156.84
 11
142.354
 21
-155.047
  0
LINE
  8
0
 10
142.354
 20
-155.047
 11
141.505
 21
-154.557
  0
LINE
  8
0
 10
141.505
 20
-154.557
 11
141.582
 21
-154.422
  0
LINE
  8
0
 10
141.582
 20
-154.422
 11
30
 21
-90
  0
LINE
  8
0
 10
30
 20
-90
 11
141.582
 21
-25.5779
  0
LINE
  8
0
 10
141.582
 20
-25.5779
 11
141.505
 21
-25.4433
  0
LINE
  8
0
 10
141.505
 20
-25.4433
 11
142.354
 21
-24.9527
  0
LINE
  8
0
 10
142.354
 20
-24.9527
 11
143.152
 21
-23.1601
  0
LINE
  8
0
 10
143.152
 20
-23.1601
 11
142.745
 21
-21.2408
  0
LINE
  8
0
 10
142.745
 20
-21.2408
 11
130.92
 21
-0.759247
  0
LINE
  8
0
 10
130.92
 20
-0.759247
 11
129.461
 21
0.553757
  0
LINE
  8
0
 10
129.461
 20
0.553757
 11
127.51
 21
0.758865
  0
LINE
  8
0
 10
127.51
 20
0.758865
 11
126.66
 21
0.268295
  0
LINE
  8
0
 10
126.66
 20
0.268295
 11
126.582
 21
0.402878
  0
LINE
  8
0
 10
126.582
 20
0.402878
 11
15
 21
-64.0192
  0
LINE
  8
0
 10
15
 20
-64.0192
 11
15
 21
64.825
  0
LINE
  8
0
 10
15
 20
64.825
 11
14.8446
 21
64.825
  0
LINE
  8
0
 10
14.8446
 20
64.825
 11
14.8446
 21
65.8061
  0
LINE
  8
0
 10
14.8446
 20
65.8061
 11
13.6912
 21
67.3936
  0
LINE
  8
0
 10
13.6912
 20
67.3936
 11
11.825
 21
68
  0
LINE
  8
0
 10
11.825
 20
68
 11
-11.825
 21
68
  0
LINE
  8
0
 10
-11.825
 20
68
 11
-13.6912
 21
67.3936
  0
LINE
  8
0
 10
-13.6912
 20
67.3936
 11
-14.8446
 21
65.8061
  0
LINE
  8
0
 10
-14.8446
 20
65.8061
 11
-14.8446
 21
64.825
  0
LINE
  8
0
 10
-14.8446
 20
64.825
 11
-15
 21
64.825
  0
LINE
  8
0
 10
-15
 20
64.825
 11
-15
 21
-64.0192
  0
LINE
  8
0
 10
-15
 20
-64.0192
 11
-126.582
 21
0.402878
  0
LINE
  8
0
 10
-126.582
 20
0.402878
 11
-126.66
 21
0.268295
  0
LINE
  8
0
 10
-126.66
 20
0.268295
 11
-127.51
 21
0.758865
  0
LINE
  8
0
 10
-127.51
 20
0.758865
 11
-129.461
 21
0.553757
  0
LINE
  8
0
 10
-129.461
 20
0.553757
 11
-130.92
 21
-0.759247
  0
LINE
  8
0
 10
-130.92
 20
-0.759247
 11
-142.745
 21
-21.2408
  0
LINE
  8
0
 10
-142.745
 20
-21.2408
 11
-143.152
 21
-23.1601
  0
LINE
  8
0
 10
-143.152
 20
-23.1601
 11
-142.354
 21
-24.9527
  0
LINE
  8
0
 10
-142.354
 20
-24.9527
 11
-141.505
 21
-25.4433
  0
LINE
  8
0
 10
-141.505
 20
-25.4433
 11
-141.582
 21
-25.5779
  0
LINE
  8
0
 10
-141.582
 20
-25.5779
 11
-30
 21
-90
  0
LINE
  8
0
 10
-30
 20
-90
 11
-141.582
 21
-154.422
  0
LINE
  8
0
 10
-141.582
 20
-154.422
 11
-141.505
 21
-154.557
  0
LINE
  8
0
 10
-141.505
 20
-154.557
 11
-142.354
 21
-155.047
  0
LINE
  8
0
 10
-142.354
 20
-155.047
 11
-143.152
 21
-156.84
  0
LINE
  8
0
 10
-143.152
 20
-156.84
 11
-142.745
 21
-158.759
  0
LINE
  8
0
 10
-142.745
 20
-158.759
 11
-130.92
 21
-179.241
  0
LINE
  8
0
 10
-130.92
 20
-179.241
 11
-129.461
 21
-180.554
  0
LINE
  8
0
 10
-129.461
 20
-180.554
 11
-127.51
 21
-180.759
  0
LINE
  8
0
 10
-127.51
 20
-180.759
 11
-126.66
 21
-180.268
  0
LINE
  8
0
 10
-126.66
 20
-180.268
 11
-126.582
 21
-180.403
  0
LINE
  8
0
 10
-126.582
 20
-180.403
 11
-15
 21
-115.981
  0
LINE
  8
0
 10
-15
 20
-115.981
 11
-15
 21
-244.825
  0
LINE
  8
0
 10
-15
 20
-244.825
 11
-14.8446
 21
-244.825
  0
LINE
  8
0
 10
-14.8446
 20
-244.825
 11
-14.8446
 21
-245.806
  0
LINE
  8
0
 10
-14.8446
 20
-245.806
 11
-13.6912
 21
-247.394
  0
LINE
  8
0
 10
-13.6912
 20
-247.394
 11
-11.825
 21
-248
  0
LINE
  8
0
 10
-11.825
 20
-248
 11
11.825
 21
-248
  0
LINE
  8
0
 10
11.825
 20
-248
 11
13.6912
 21
-247.394
  0
LINE
  8
0
 10
-0.949783
 20
54.1466
 11
-2.63176
 21
55.0293
  0
LINE
  8
0
 10
-2.63176
 20
55.0293
 11
-3.71083
 21
56.5927
  0
LINE
  8
0
 10
-3.71083
 20
56.5927
 11
-3.9398
 21
58.4784
  0
LINE
  8
0
 10
-3.9398
 20
58.4784
 11
-3.2662
 21
60.2545
  0
LINE
  8
0
 10
-3.2662
 20
60.2545
 11
-1.84436
 21
61.5142
  0
LINE
  8
0
 10
-1.84436
 20
61.5142
 11
0
 21
61.9688
  0
LINE
  8
0
 10
0
 20
61.9688
 11
1.84436
 21
61.5142
  0
LINE
  8
0
 10
1.84436
 20
61.5142
 11
3.2662
 21
60.2545
  0
LINE
  8
0
 10
3.2662
 20
60.2545
 11
3.9398
 21
58.4784
  0
LINE
  8
0
 10
3.9398
 20
58.4784
 11
3.71083
 21
56.5927
  0
LINE
  8
0
 10
3.71083
 20
56.5927
 11
2.63176
 21
55.0293
  0
LINE
  8
0
 10
2.63176
 20
55.0293
 11
0.949783
 21
54.1466
  0
LINE
  8
0
 10
0.949783
 20
54.1466
 11
-0.949783
 21
54.1466
  0
LINE
  8
0
 10
-130.556
 20
-19.1728
 11
-131.757
 21
-17.7014
  0
LINE
  8
0
 10
-131.757
 20
-17.7014
 11
-132.137
 21
-15.8402
  0
LINE
  8
0
 10
-132.137
 20
-15.8402
 11
-131.609
 21
-14.0156
  0
LINE
  8
0
 10
-131.609
 20
-14.0156
 11
-130.293
 21
-12.6457
  0
LINE
  8
0
 10
-130.293
 20
-12.6457
 11
-128.491
 21
-12.0441
  0
LINE
  8
0
 10
-128.491
 20
-12.0441
 11
-126.616
 21
-12.3488
  0
LINE
  8
0
 10
-126.616
 20
-12.3488
 11
-125.098
 21
-13.49
  0
LINE
  8
0
 10
-125.098
 20
-13.49
 11
-124.283
 21
-15.2061
  0
LINE
  8
0
 10
-124.283
 20
-15.2061
 11
-124.36
 21
-17.1042
  0
LINE
  8
0
 10
-124.36
 20
-17.1042
 11
-125.309
 21
-18.7493
  0
LINE
  8
0
 10
-125.309
 20
-18.7493
 11
-126.915
 21
-19.7645
  0
LINE
  8
0
 10
-126.915
 20
-19.7645
 11
-128.808
 21
-19.9174
  0
LINE
  8
0
 10
-128.808
 20
-19.9174
 11
-130.556
 21
-19.1728
  0
LINE
  8
0
 10
127.395
 20
-19.8033
 11
126.508
 21
-19.507
  0
LINE
  8
0
 10
126.508
 20
-19.507
 11
125.717
 21
-19.0068
  0
LINE
  8
0
 10
125.717
 20
-19.0068
 11
125.069
 21
-18.3319
  0
LINE
  8
0
 10
125.069
 20
-18.3319
 11
124.601
 21
-17.5215
  0
LINE
  8
0
 10
124.601
 20
-17.5215
 11
124.34
 21
-16.6227
  0
LINE
  8
0
 10
124.34
 20
-16.6227
 11
124.303
 21
-15.6877
  0
LINE
  8
0
 10
124.303
 20
-15.6877
 11
124.49
 21
-14.7708
  0
LINE
  8
0
 10
124.49
 20
-14.7708
 11
124.891
 21
-13.9254
  0
LINE
  8
0
 10
124.891
 20
-13.9254
 11
125.483
 21
-13.2005
  0
LINE
  8
0
 10
125.483
 20
-13.2005
 11
126.231
 21
-12.6383
  0
LINE
  8
0
 10
126.231
 20
-12.6383
 11
127.092
 21
-12.2715
  0
LINE
  8
0
 10
127.092
 20
-12.2715
 11
128.015
 21
-12.1214
  0
LINE
  8
0
 10
128.015
 20
-12.1214
 11
128.948
 21
-12.1967
  0
LINE
  8
0
 10
128.948
 20
-12.1967
 11
129.836
 21
-12.4931
  0
LINE
  8
0
 10
129.836
 20
-12.4931
 11
130.627
 21
-12.9932
  0
LINE
  8
0
 10
130.627
 20
-12.9932
 11
131.275
 21
-13.6681
  0
LINE
  8
0
 10
131.275
 20
-13.6681
 11
131.743
 21
-14.4785
  0
LINE
  8
0
 10
131.743
 20
-14.4785
 11
132.003
 21
-15.3773
  0
LINE
  8
0
 10
132.003
 20
-15.3773
 11
132.041
 21
-16.3123
  0
LINE
  8
0
 10
132.041
 20
-16.3123
 11
131.854
 21
-17.2292
  0
LINE
  8
0
 10
131.854
 20
-17.2292
 11
131.453
 21
-18.0746
  0
LINE
  8
0
 10
131.453
 20
-18.0746
 11
130.861
 21
-18.7995
  0
LINE
  8
0
 10
130.861
 20
-18.7995
 11
130.113
 21
-19.3617
  0
LINE
  8
0
 10
130.113
 20
-19.3617
 11
129.252
 21
-19.7285
  0
LINE
  8
0
 10
129.252
 20
-19.7285
 11
128.328
 21
-19.8786
  0
LINE
  8
0
 10
128.328
 20
-19.8786
 11
127.395
 21
-19.8033
  0
LINE
  8
0
 10
-0.629074
 20
-95.9854
 11
-1.25127
 21
-95.8868
  0
LINE
  8
0
 10
-1.25127
 20
-95.8868
 11
-1.85976
 21
-95.7238
  0
LINE
  8
0
 10
-1.85976
 20
-95.7238
 11
-2.44788
 21
-95.498
  0
LINE
  8
0
 10
-2.44788
 20
-95.498
 11
-3.00916
 21
-95.212
  0
LINE
  8
0
 10
-3.00916
 20
-95.212
 11
-3.53748
 21
-94.8689
  0
LINE
  8
0
 10
-3.53748
 20
-94.8689
 11
-4.02704
 21
-94.4725
  0
LINE
  8
0
 10
-4.02704
 20
-94.4725
 11
-4.47249
 21
-94.027
  0
LINE
  8
0
 10
-4.47249
 20
-94.027
 11
-4.86893
 21
-93.5375
  0
LINE
  8
0
 10
-4.86893
 20
-93.5375
 11
-5.21202
 21
-93.0092
  0
LINE
  8
0
 10
-5.21202
 20
-93.0092
 11
-5.49802
 21
-92.4479
  0
LINE
  8
0
 10
-5.49802
 20
-92.4479
 11
-5.72377
 21
-91.8598
  0
LINE
  8
0
 10
-5.72377
 20
-91.8598
 11
-5.88681
 21
-91.2513
  0
LINE
  8
0
 10
-5.88681
 20
-91.2513
 11
-5.98535
 21
-90.6291
  0
LINE
  8
0
 10
-5.98535
 20
-90.6291
 11
-6.01833
 21
-90
  0
LINE
  8
0
 10
-6.01833
 20
-90
 11
-5.98535
 21
-89.3709
  0
LINE
  8
0
 10
-5.98535
 20
-89.3709
 11
-5.88681
 21
-88.7487
  0
LINE
  8
0
 10
-5.88681
 20
-88.7487
 11
-5.72377
 21
-88.1402
  0
LINE
  8
0
 10
-5.72377
 20
-88.1402
 11
-5.49802
 21
-87.5521
  0
LINE
  8
0
 10
-5.49802
 20
-87.5521
 11
-5.21202
 21
-86.9908
  0
LINE
  8
0
 10
-5.21202
 20
-86.9908
 11
-4.86893
 21
-86.4625
  0
LINE
  8
0
 10
-4.86893
 20
-86.4625
 11
-4.47249
 21
-85.973
  0
LINE
  8
0
 10
-4.47249
 20
-85.973
 11
-4.02704
 21
-85.5275
  0
LINE
  8
0
 10
-4.02704
 20
-85.5275
 11
-3.53748
 21
-85.1311
  0
LINE
  8
0
 10
-3.53748
 20
-85.1311
 11
-3.00916
 21
-84.788
  0
LINE
  8
0
 10
-3.00916
 20
-84.788
 11
-2.44788
 21
-84.502
  0
LINE
  8
0
 10
-2.44788
 20
-84.502
 11
-1.85976
 21
-84.2762
  0
LINE
  8
0
 10
-1.85976
 20
-84.2762
 11
-1.25127
 21
-84.1132
  0
LINE
  8
0
 10
-1.25127
 20
-84.1132
 11
-0.629074
 21
-84.0146
  0
LINE
  8
0
 10
-0.629074
 20
-84.0146
 11
0
 21
-83.9817
  0
LINE
  8
0
 10
0
 20
-83.9817
 11
0.629074
 21
-84.0146
  0
LINE
  8
0
 10
0.629074
 20
-84.0146
 11
1.25127
 21
-84.1132
  0
LINE
  8
0
 10
1.25127
 20
-84.1132
 11
1.85976
 21
-84.2762
  0
LINE
  8
0
 10
1.85976
 20
-84.2762
 11
2.44788
 21
-84.502
  0
LINE
  8
0
 10
2.44788
 20
-84.502
 11
3.00916
 21
-84.788
  0
LINE
  8
0
 10
3.00916
 20
-84.788
 11
3.53748
 21
-85.1311
  0
LINE
  8
0
 10
3.53748
 20
-85.1311
 11
4.02704
 21
-85.5275
  0
LINE
  8
0
 10
4.02704
 20
-85.5275
 11
4.47249
 21
-85.973
  0
LINE
  8
0
 10
4.47249
 20
-85.973
 11
4.86893
 21
-86.4625
  0
LINE
  8
0
 10
4.86893
 20
-86.4625
 11
5.21202
 21
-86.9908
  0
LINE
  8
0
 10
5.21202
 20
-86.9908
 11
5.49802
 21
-87.5521
  0
LINE
  8
0
 10
5.49802
 20
-87.5521
 11
5.72377
 21
-88.1402
  0
LINE
  8
0
 10
5.72377
 20
-88.1402
 11
5.88681
 21
-88.7487
  0
LINE
  8
0
 10
5.88681
 20
-88.7487
 11
5.98535
 21
-89.3709
  0
LINE
  8
0
 10
5.98535
 20
-89.3709
 11
6.01833
 21
-90
  0
LINE
  8
0
 10
6.01833
 20
-90
 11
5.98535
 21
-90.6291
  0
LINE
  8
0
 10
5.98535
 20
-90.6291
 11
5.88681
 21
-91.2513
  0
LINE
  8
0
 10
5.88681
 20
-91.2513
 11
5.72377
 21
-91.8598
  0
LINE
  8
0
 10
5.72377
 20
-91.8598
 11
5.49802
 21
-92.4479
  0
LINE
  8
0
 10
5.49802
 20
-92.4479
 11
5.21202
 21
-93.0092
  0
LINE
  8
0
 10
5.21202
 20
-93.0092
 11
4.86893
 21
-93.5375
  0
LINE
  8
0
 10
4.86893
 20
-93.5375
 11
4.47249
 21
-94.027
  0
LINE
  8
0
 10
4.47249
 20
-94.027
 11
4.02704
 21
-94.4725
  0
LINE
  8
0
 10
4.02704
 20
-94.4725
 11
3.53748
 21
-94.8689
  0
LINE
  8
0
 10
3.53748
 20
-94.8689
 11
3.00916
 21
-95.212
  0
LINE
  8
0
 10
3.00916
 20
-95.212
 11
2.44788
 21
-95.498
  0
LINE
  8
0
 10
2.44788
 20
-95.498
 11
1.85976
 21
-95.7238
  0
LINE
  8
0
 10
1.85976
 20
-95.7238
 11
1.25127
 21
-95.8868
  0
LINE
  8
0
 10
1.25127
 20
-95.8868
 11
0.629074
 21
-95.9854
  0
LINE
  8
0
 10
0.629074
 20
-95.9854
 11
0
 21
-96.0183
  0
LINE
  8
0
 10
0
 20
-96.0183
 11
-0.629074
 21
-95.9854
  0
LINE
  8
0
 10
125.788
 20
-167.173
 11
124.586
 21
-165.701
  0
LINE
  8
0
 10
124.586
 20
-165.701
 11
124.206
 21
-163.84
  0
LINE
  8
0
 10
124.206
 20
-163.84
 11
124.735
 21
-162.016
  0
LINE
  8
0
 10
124.735
 20
-162.016
 11
126.051
 21
-160.646
  0
LINE
  8
0
 10
126.051
 20
-160.646
 11
127.852
 21
-160.044
  0
LINE
  8
0
 10
127.852
 20
-160.044
 11
129.727
 21
-160.349
  0
LINE
  8
0
 10
129.727
 20
-160.349
 11
131.246
 21
-161.49
  0
LINE
  8
0
 10
131.246
 20
-161.49
 11
132.06
 21
-163.206
  0
LINE
  8
0
 10
132.06
 20
-163.206
 11
131.984
 21
-165.104
  0
LINE
  8
0
 10
131.984
 20
-165.104
 11
131.034
 21
-166.749
  0
LINE
  8
0
 10
131.034
 20
-166.749
 11
129.429
 21
-167.764
  0
LINE
  8
0
 10
129.429
 20
-167.764
 11
127.535
 21
-167.917
  0
LINE
  8
0
 10
127.535
 20
-167.917
 11
125.788
 21
-167.173
  0
LINE
  8
0
 10
-128.948
 20
-167.803
 11
-129.836
 21
-167.507
  0
LINE
  8
0
 10
-129.836
 20
-167.507
 11
-130.627
 21
-167.007
  0
LINE
  8
0
 10
-130.627
 20
-167.007
 11
-131.275
 21
-166.332
  0
LINE
  8
0
 10
-131.275
 20
-166.332
 11
-131.743
 21
-165.521
  0
LINE
  8
0
 10
-131.743
 20
-165.521
 11
-132.003
 21
-164.623
  0
LINE
  8
0
 10
-132.003
 20
-164.623
 11
-132.041
 21
-163.688
  0
LINE
  8
0
 10
-132.041
 20
-163.688
 11
-131.854
 21
-162.771
  0
LINE
  8
0
 10
-131.854
 20
-162.771
 11
-131.453
 21
-161.925
  0
LINE
  8
0
 10
-131.453
 20
-161.925
 11
-130.861
 21
-161.2
  0
LINE
  8
0
 10
-130.861
 20
-161.2
 11
-130.113
 21
-160.638
  0
LINE
  8
0
 10
-130.113
 20
-160.638
 11
-129.252
 21
-160.272
  0
LINE
  8
0
 10
-129.252
 20
-160.272
 11
-128.328
 21
-160.121
  0
LINE
  8
0
 10
-128.328
 20
-160.121
 11
-127.395
 21
-160.197
  0
LINE
  8
0
 10
-127.395
 20
-160.197
 11
-126.508
 21
-160.493
  0
LINE
  8
0
 10
-126.508
 20
-160.493
 11
-125.717
 21
-160.993
  0
LINE
  8
0
 10
-125.717
 20
-160.993
 11
-125.069
 21
-161.668
  0
LINE
  8
0
 10
-125.069
 20
-161.668
 11
-124.601
 21
-162.478
  0
LINE
  8
0
 10
-124.601
 20
-162.478
 11
-124.34
 21
-163.377
  0
LINE
  8
0
 10
-124.34
 20
-163.377
 11
-124.303
 21
-164.312
  0
LINE
  8
0
 10
-124.303
 20
-164.312
 11
-124.49
 21
-165.229
  0
LINE
  8
0
 10
-124.49
 20
-165.229
 11
-124.891
 21
-166.075
  0
LINE
  8
0
 10
-124.891
 20
-166.075
 11
-125.483
 21
-166.8
  0
LINE
  8
0
 10
-125.483
 20
-166.8
 11
-126.231
 21
-167.362
  0
LINE
  8
0
 10
-126.231
 20
-167.362
 11
-127.092
 21
-167.728
  0
LINE
  8
0
 10
-127.092
 20
-167.728
 11
-128.015
 21
-167.879
  0
LINE
  8
0
 10
-128.015
 20
-167.879
 11
-128.948
 21
-167.803
  0
LINE
  8
0
 10
-0.949783
 20
-241.853
 11
-2.63176
 21
-240.971
  0
LINE
  8
0
 10
-2.63176
 20
-240.971
 11
-3.71083
 21
-239.407
  0
LINE
  8
0
 10
-3.71083
 20
-239.407
 11
-3.9398
 21
-237.522
  0
LINE
  8
0
 10
-3.9398
 20
-237.522
 11
-3.2662
 21
-235.745
  0
LINE
  8
0
 10
-3.2662
 20
-235.745
 11
-1.84436
 21
-234.486
  0
LINE
  8
0
 10
-1.84436
 20
-234.486
 11
0
 21
-234.031
  0
LINE
  8
0
 10
0
 20
-234.031
 11
1.84436
 21
-234.486
  0
LINE
  8
0
 10
1.84436
 20
-234.486
 11
3.2662
 21
-235.745
  0
LINE
  8
0
 10
3.2662
 20
-235.745
 11
3.9398
 21
-237.522
  0
LINE
  8
0
 10
3.9398
 20
-237.522
 11
3.71083
 21
-239.407
  0
LINE
  8
0
 10
3.71083
 20
-239.407
 11
2.63176
 21
-240.971
  0
LINE
  8
0
 10
2.63176
 20
-240.971
 11
0.949783
 21
-241.853
  0
LINE
  8
0
 10
0.949783
 20
-241.853
 11
-0.949783
 21
-241.853
  0
ENDSEC
  0
SECTION
  2
OBJECTS
  0
DICTIONARY
  0
ENDSEC
  0
EOF
